Graphic Design Blogs - BlogCatalog Blog DirectoryJoin My Community at MyBloglog!Test your Internet connection speed at Speedtest.netArtsGet this blog as a slideshow! Free Page Rank Tool

Saturday, August 20, 2011

Guns N Roses - Civil War Tablature

Guns N Roses - Civil War TablatureCivil War
Guns N Roses
Use your Illusion II
Tablature


Civil War is a song created by the hard rock band Guns N 'Roses, which originally appeared on 1990 album Nobody's Child: Romanian Angel Appeal. This is a form of protest against the war which refers to the civil war in the world. This song also tells about the rich man who buried the poor.

Civil War is the brainchild of artist Guns N 'Roses: Slash, Axl Rose, and Duff McKagan. Slash said that such an instrumental song written just before the band toured the album Appetite for Destruction to Japan. Axl wrote the lyrics right at sound check in Melbourne, Australia. On 27 September 1993, Duff McKagan explains the origin of the song in an interview on Rockline: "Basically this is a riff that we would do to test the sound."

This song also mentions about the assassination of John F. Kennedy on the lyrics: "And in my first memories They shot kennedy," and the struggle for civil rights and Vietnam War. Rose was one year old when Kennedy was assassinated. Duff and Slash were born after that.

Facts about the civil war songs

  • The song ends with a line saying, "What so civil about war anyway?", A word game with a civil word can also mean evil.
  • "Civil War" is the last song the drummer Steven Adler for Guns N 'Roses before being replaced by Matt Sorum.
  • Nobody's Child: Romanian Angel Appeal, civil war album where the song was released, is an album to raise money for Romanian orphans.
  • Civil War is also the first song on the album Use Your Illusion II. This song also appeared on the compilation album Use your Illusion and Guns 'N' Roses Greatest Hits.

So here is the tab for the song...

Intro:

Em
Rhy.Fig 1 G
|----------------------------------|-------------------------------------|
|----------------------------------|-------------------------------------|
|-------0----------------0---------|-------0---------------0-------------|
|---2-----2---2------2-----2-----0-|---0-----0---0-----0-----0-----2-----|
|-----2-----2-----(2)--2-----0h2---|-----2-----2----(2)--2-----0h2-------|
|-0--------------0-----------------|-3-------------3---------------------|

Em G
|-----------------------|------------------------|
|-----------------------|------------------------|
|------0---------0------|------0-----------2-0-2-|
|---2---2-2---2---2---2-|---0---2---0---0-----2--|
|--2-2---2---2-2---0h2--|--2-2---0h2---0-0-------|
|-0---------0-----------|-3-----------2----------|

Riff A
Em G Em G
|-12-----10--------|-----------------|-12---10----------|------------------|
|------------10-11-|-12--------------|------------10-11-|-12-------10s8s7s-|
|------------------|-----------------|------------------|------------------|
|------------------|-----------------|------------------|------------------|
|------------------|-----------------|------------------|------------------|
|------------------|-----------------|------------------|------------------|
| |
|------------------|-----------------|------------------|------------------|
|------------------|-----------------|------------------|------------------|
|----0-------0-----|---0-------0-----|----0-------0-----|----0--------2-0-0|
|--2--2-2--2--2---2|-0--0-0--0--0---0|--2--2-2--2--2---2|--0--0-----0----2-|
|-2-2--2--2-2--0h2-|--2--2--2-2--0h2-|-2-2--2--2-2--0h2-|-2-2--2-0-0-0-----|
|0-------0---------|3------3---------|0-------0---------|3--------2--------|




Read the rest tablature right here on : www.tabs.ultimate-guitar.com/g/guns_n_roses/civil_war_tab.htm

0 comments:

Post a Comment

When you gotta go, you gotta go! Throw it all away HERE! Lmao!