Photoshop

Do I should hire a professional designer to create my ad just for me? Hell No!!! Designing is a learned craft and of course I do believe that everyone has creativity. What most pro-designers (defined as anyone who writes an advertisement for now, lol) do is... dig and cultivate their insane creativity.

Tablature

Who wins?Metal or rock?For me — there is no battle. Metal is just rock with a bit more distortion and attitude. And the guy that “embodies that” the most is none other than Jack Frost.He’s like a metal god with a touch of motivational speaker. Here’s some cool lessons from him showingyou one of Van Halen’s secrets: EPIC RHYTHM SECRETS.

CorelDRAW

I like CorelDraw except for this, and this could be the deciding factor as this is such an important tool. If anyone could tell me or point me in the right direction to making the CorelDraw pen tool just as flexible as the painting in white blank ordinary paper just like in school, especially (or) in this reguard...

Image Galery

Your website is where your business resides -- it's like the headquarter of an offline company. Hence, it is important to practice good design principles to make sure your site reaches out to the maximum number of visitors and sells to as many people as possible.

Graphic Design Blogs - BlogCatalog Blog DirectoryJoin My Community at MyBloglog!Test your Internet connection speed at Speedtest.netArtsGet this blog as a slideshow! Free Page Rank Tool

Friday, June 24, 2011

Dream Theater - Metropolis

I am the biggest Dream Theater fan ever. Well, maybe not the biggest, but they are the reason why I would be here, writing all of this stuffs. I have always loved Dream Theater, and the fans.

When the lyrics moved out of Dom's range mid-line, LaBrie picked them up really quickly and naturally. Pretty cool stuff...

And if you like it, to help me spear the songs of this band through facebook or twitter. Thank you, and sorry for the smap if you did not like it. I thought it would have been cooler if James and Charlie sung at the same time rather than different times.
Watch this... this is sooo damn cool!!!



Hire Me?!


Play the intro with this open string like this...

E---------------------------------------------------------------------------------------|
B---------------------------------------------------------------------------------------|
G---------------------------------------------------------------------------------------|
D---------------------------------------------------------------------------------------|
A---------------------------------------------------------------------------------------|
E--0-0-0-0-0-------0-0-0-0-0-----0---------0-0-0-0-0-----0-0----------0-0-0-0-0-----0---|

Get the rest of the tab of this song right about here!

Thursday, June 23, 2011

Sacramento bankruptcy attorney

For many of us this debt can be overcome and lead to family problems and feelings of despair and even suicide. With credit card interest rate of 18-27%, as the servants are obliged modern. Many times, the debt caused by unforeseen events such as job loss or medical bills, but more often just bad planning. But in setting of Sacramento bankruptcy attorney, Congress recognized that responsible, well-intentioned people can sometimes run into financial problems. By allowing you to recover the debt you can begin to see the future and more productive members of society. This is good for you and good for society as a whole.

Sunday, June 05, 2011

Canon In D Solo Tab by Johann Pachelbel

Johann Pachelbel (1653–1706) was an acclaimed Baroque composer, organist, and teacher who brought the south German organ tradition to its peak. He composed a large body of sacred and secular music, and his contributions to the development of the chorale prelude and fugue have earned him a place among the most important composers of the middle Baroque.

Pachelbel's music was influenced by south German composers such as Johann Jakob Froberger and Johann Kaspar Kerll, Italians such as Girolamo Frescobaldi and Alessandro Poglietti, French composers and the composers of the Nuremberg tradition.

W                    H          H             H          H          
-------------------|------------------------|------------------------|
-------------------|--19~--------17~--------|--15~--------14~--------|
-------------------|------------------------|------------------------|
-------------------|------------------------|------------------------|
-------------------|------------------------|------------------------|
-------------------|------------------------|------------------------|


   H          H             H          Q      E   E   
------------------------|----------------------------|
--12~--------10~--------|--12~--------14~----15--17--|
------------------------|----------------------------|
------------------------|----------------------------|
------------------------|----------------------------|
------------------------|----------------------------|


                      |---3---|                                         
   H          E   E   S   S   S  E      Q.       S   S  E   E   E   E   
--14~------------15--14h-15p-14-----|----------------------14--17--19--|
-------------17-----------------17--|--15~------17p-15-14--------------|
------------------------------------|----------------------------------|
------------------------------------|----------------------------------|
------------------------------------|----------------------------------|
------------------------------------|----------------------------------|


       |--3--|                  |--3--|      
   E   S  S  S  E   E   E   E   S  S  S  E   
--15--14-15-14-----15--14-------------------|
---------------17----------17--15-17-15-----|
----------------------------------------14--|
--------------------------------------------|
--------------------------------------------|
--------------------------------------------|


See more about this tab by clicking this Canon In D Solo Tab by Johann Pachelbel link.