Graphic Design Blogs - BlogCatalog Blog DirectoryJoin My Community at MyBloglog!Test your Internet connection speed at Speedtest.netArtsGet this blog as a slideshow! Free Page Rank Tool

Sunday, June 05, 2011

Canon In D Solo Tab by Johann Pachelbel

Johann Pachelbel (1653–1706) was an acclaimed Baroque composer, organist, and teacher who brought the south German organ tradition to its peak. He composed a large body of sacred and secular music, and his contributions to the development of the chorale prelude and fugue have earned him a place among the most important composers of the middle Baroque.

Pachelbel's music was influenced by south German composers such as Johann Jakob Froberger and Johann Kaspar Kerll, Italians such as Girolamo Frescobaldi and Alessandro Poglietti, French composers and the composers of the Nuremberg tradition.

W                    H          H             H          H          
-------------------|------------------------|------------------------|
-------------------|--19~--------17~--------|--15~--------14~--------|
-------------------|------------------------|------------------------|
-------------------|------------------------|------------------------|
-------------------|------------------------|------------------------|
-------------------|------------------------|------------------------|


   H          H             H          Q      E   E   
------------------------|----------------------------|
--12~--------10~--------|--12~--------14~----15--17--|
------------------------|----------------------------|
------------------------|----------------------------|
------------------------|----------------------------|
------------------------|----------------------------|


                      |---3---|                                         
   H          E   E   S   S   S  E      Q.       S   S  E   E   E   E   
--14~------------15--14h-15p-14-----|----------------------14--17--19--|
-------------17-----------------17--|--15~------17p-15-14--------------|
------------------------------------|----------------------------------|
------------------------------------|----------------------------------|
------------------------------------|----------------------------------|
------------------------------------|----------------------------------|


       |--3--|                  |--3--|      
   E   S  S  S  E   E   E   E   S  S  S  E   
--15--14-15-14-----15--14-------------------|
---------------17----------17--15-17-15-----|
----------------------------------------14--|
--------------------------------------------|
--------------------------------------------|
--------------------------------------------|


See more about this tab by clicking this Canon In D Solo Tab by Johann Pachelbel link.

0 comments:

Post a Comment

When you gotta go, you gotta go! Throw it all away HERE! Lmao!